  0
SECTION
  2
HEADER
  9
$ACADVER
  1
AC1009
  9
$INSBASE
 10
0.0
 20
0.0
 30
0.0
  9
$EXTMIN
 10
-18.58453784793128
 20
-30.5970825644422
 30
0.0
  9
$EXTMAX
 10
1080.108326012296
 20
1049.570143131016
 30
0.0
  9
$LIMMIN
 10
0.0
 20
0.0
  9
$LIMMAX
 10
420.0
 20
297.0
  9
$ORTHOMODE
 70
     1
  9
$REGENMODE
 70
     1
  9
$FILLMODE
 70
     1
  9
$QTEXTMODE
 70
     0
  9
$MIRRTEXT
 70
     0
  9
$DRAGMODE
 70
     2
  9
$LTSCALE
 40
1.0
  9
$OSMODE
 70
    32
  9
$ATTMODE
 70
     2
  9
$TEXTSIZE
 40
0.2
  9
$TRACEWID
 40
0.05
  9
$TEXTSTYLE
  7
STANDARD
  9
$CLAYER
  8
ITEM_50
  9
$CELTYPE
  6
BYLAYER
  9
$CECOLOR
 62
   256
  9
$DIMSCALE
 40
1.0
  9
$DIMASZ
 40
2.5
  9
$DIMEXO
 40
1.0
  9
$DIMDLI
 40
7.0
  9
$DIMRND
 40
0.0
  9
$DIMDLE
 40
0.0
  9
$DIMEXE
 40
2.0
  9
$DIMTP
 40
0.1
  9
$DIMTM
 40
0.1
  9
$DIMTXT
 40
3.5
  9
$DIMCEN
 40
0.0
  9
$DIMTSZ
 40
0.0
  9
$DIMTOL
 70
     0
  9
$DIMLIM
 70
     0
  9
$DIMTIH
 70
     0
  9
$DIMTOH
 70
     0
  9
$DIMSE1
 70
     0
  9
$DIMSE2
 70
     0
  9
$DIMTAD
 70
     1
  9
$DIMZIN
 70
     0
  9
$DIMBLK
  1

  9
$DIMASO
 70
     1
  9
$DIMSHO
 70
     1
  9
$DIMPOST
  1

  9
$DIMAPOST
  1

  9
$DIMALT
 70
     0
  9
$DIMALTD
 70
     2
  9
$DIMALTF
 40
0.0393701
  9
$DIMLFAC
 40
1.0
  9
$DIMTOFL
 70
     1
  9
$DIMTVP
 40
0.0
  9
$DIMTIX
 70
     0
  9
$DIMSOXD
 70
     0
  9
$DIMSAH
 70
     0
  9
$DIMBLK1
  1

  9
$DIMBLK2
  1

  9
$DIMSTYLE
  2
GEN-ISO
  9
$DIMCLRD
 70
   256
  9
$DIMCLRE
 70
   256
  9
$DIMCLRT
 70
     2
  9
$DIMTFAC
 40
0.71
  9
$DIMGAP
 40
0.6
  9
$LUNITS
 70
     2
  9
$LUPREC
 70
     2
  9
$SKETCHINC
 40
0.1
  9
$FILLETRAD
 40
1.0
  9
$AUNITS
 70
     0
  9
$AUPREC
 70
     0
  9
$MENU
  1

  9
$ELEVATION
 40
0.0
  9
$PELEVATION
 40
0.0
  9
$THICKNESS
 40
0.0
  9
$LIMCHECK
 70
     0
  9
$BLIPMODE
 70
     0
  9
$CHAMFERA
 40
2.5
  9
$CHAMFERB
 40
2.5
  9
$SKPOLY
 70
     0
  9
$TDCREATE
 40
2450130.560190393
  9
$TDUPDATE
 40
2450191.400614698
  9
$TDINDWG
 40
0.4377498843
  9
$TDUSRTIMER
 40
0.4377498843
  9
$USRTIMER
 70
     1
  9
$ANGBASE
 50
0.0
  9
$ANGDIR
 70
     0
  9
$PDMODE
 70
     3
  9
$PDSIZE
 40
0.0
  9
$PLINEWID
 40
0.0
  9
$COORDS
 70
     1
  9
$SPLFRAME
 70
     0
  9
$SPLINETYPE
 70
     6
  9
$SPLINESEGS
 70
     8
  9
$ATTDIA
 70
     1
  9
$ATTREQ
 70
     1
  9
$HANDLING
 70
     1
  9
$HANDSEED
  5
3C1
  9
$SURFTAB1
 70
     6
  9
$SURFTAB2
 70
     6
  9
$SURFTYPE
 70
     6
  9
$SURFU
 70
     6
  9
$SURFV
 70
     6
  9
$UCSNAME
  2

  9
$UCSORG
 10
0.0
 20
0.0
 30
0.0
  9
$UCSXDIR
 10
1.0
 20
0.0
 30
0.0
  9
$UCSYDIR
 10
0.0
 20
1.0
 30
0.0
  9
$PUCSNAME
  2

  9
$PUCSORG
 10
0.0
 20
0.0
 30
0.0
  9
$PUCSXDIR
 10
1.0
 20
0.0
 30
0.0
  9
$PUCSYDIR
 10
0.0
 20
1.0
 30
0.0
  9
$USERI1
 70
     0
  9
$USERI2
 70
     0
  9
$USERI3
 70
     0
  9
$USERI4
 70
     0
  9
$USERI5
 70
     0
  9
$USERR1
 40
0.0
  9
$USERR2
 40
0.0
  9
$USERR3
 40
0.0
  9
$USERR4
 40
0.0
  9
$USERR5
 40
0.0
  9
$WORLDVIEW
 70
     1
  9
$SHADEDGE
 70
     3
  9
$SHADEDIF
 70
    70
  9
$TILEMODE
 70
     1
  9
$MAXACTVP
 70
    16
  9
$PINSBASE
 10
0.0
 20
0.0
 30
0.0
  9
$PLIMCHECK
 70
     0
  9
$PEXTMIN
 10
1.000000000000000E+20
 20
1.000000000000000E+20
 30
1.000000000000000E+20
  9
$PEXTMAX
 10
-1.000000000000000E+20
 20
-1.000000000000000E+20
 30
-1.000000000000000E+20
  9
$PLIMMIN
 10
0.0
 20
0.0
  9
$PLIMMAX
 10
12.0
 20
9.0
  9
$UNITMODE
 70
     0
  9
$VISRETAIN
 70
     0
  9
$PLINEGEN
 70
     0
  9
$PSLTSCALE
 70
     1
  9
$TREEDEPTH
 70
  3020
  9
$DWGCODEPAGE
  3
dos850
  0
ENDSEC
  0
SECTION
  2
TABLES
  0
TABLE
  2
VPORT
 70
     2
  0
VPORT
  2
*ACTIVE
 70
     0
 10
0.0
 20
0.0
 11
1.0
 21
1.0
 12
39.99999999999999
 22
27.33978207523518
 13
0.0
 23
0.0
 14
1.0
 24
1.0
 15
10.0
 25
10.0
 16
0.0
 26
0.0
 36
1.0
 17
0.0
 27
0.0
 37
0.0
 40
91.84863984633292
 41
1.275675675675675
 42
50.0
 43
0.0
 44
0.0
 50
0.0
 51
0.0
 71
     0
 72
   100
 73
     1
 74
     0
 75
     0
 76
     0
 77
     0
 78
     0
  0
ENDTAB
  0
TABLE
  2
LTYPE
 70
     2
  0
LTYPE
  2
CONTINUOUS
 70
    64
  3
Solid line
 72
    65
 73
     0
 40
0.0
  0
LTYPE
  2
GEN
 70
    64
  3
----------------------
 72
    65
 73
     2
 40
10000000000.0
 49
0.0
 49
10000000000.0
  0
ENDTAB
  0
TABLE
  2
LAYER
 70
     7
  0
LAYER
  2
0
 70
    64
 62
     7
  6
CONTINUOUS
  0
LAYER
  2
AIT$HILFE
 70
     0
 62
     3
  6
CONTINUOUS
  0
LAYER
  2
6
 70
    64
 62
     2
  6
CONTINUOUS
  0
LAYER
  2
DEFPOINTS
 70
     0
 62
     7
  6
GEN
  0
LAYER
  2
5
 70
     0
 62
     3
  6
CONTINUOUS
  0
LAYER
  2
ITEM_HILFE
 70
    64
 62
     3
  6
CONTINUOUS
  0
LAYER
  2
ITEM_50
 70
    64
 62
     7
  6
CONTINUOUS
  0
ENDTAB
  0
TABLE
  2
STYLE
 70
     3
  0
STYLE
  2
STANDARD
 70
    64
 40
0.0
 41
1.0
 50
0.0
 71
     0
 42
0.2
  3
GENISO.SHX
  4

  0
STYLE
  2
AIT$TSTIL
 70
     0
 40
0.0
 41
0.8
 50
0.0
 71
     0
 42
0.2
  3
iso8
  4

  0
STYLE
  2
GENPRESET
 70
    64
 40
0.0
 41
1.0
 50
0.0
 71
     0
 42
3.5
  3
GENPRESE
  4

  0
ENDTAB
  0
TABLE
  2
VIEW
 70
     0
  0
ENDTAB
  0
TABLE
  2
UCS
 70
     0
  0
ENDTAB
  0
TABLE
  2
APPID
 70
    16
  0
APPID
  2
ACAD
 70
    64
  0
ENDTAB
  0
TABLE
  2
DIMSTYLE
 70
     3
  0
DIMSTYLE
  2
GEN-ISO
 70
     0
  3

  4

  5

  6

  7

 40
1.0
 41
2.5
 42
1.0
 43
7.0
 44
2.0
 45
0.0
 46
0.0
 47
0.1
 48
0.1
140
3.5
141
0.0
142
0.0
143
0.0393701
144
1.0
145
0.0
146
0.71
147
0.6
 71
     0
 72
     0
 73
     0
 74
     0
 75
     0
 76
     0
 77
     1
 78
     8
170
     0
171
     2
172
     1
173
     0
174
     0
175
     0
176
   256
177
   256
178
     2
  0
DIMSTYLE
  2
GEN-ISO$4
 70
     0
  3

  4

  5

  6

  7

 40
1.0
 41
2.5
 42
1.0
 43
7.0
 44
2.0
 45
0.0
 46
0.0
 47
0.1
 48
0.1
140
3.5
141
0.0
142
0.0
143
0.0393701
144
1.0
145
0.0
146
0.71
147
0.6
 71
     0
 72
     0
 73
     0
 74
     1
 75
     0
 76
     0
 77
     1
 78
     8
170
     0
171
     2
172
     0
173
     0
174
     0
175
     0
176
   256
177
   256
178
     2
  0
DIMSTYLE
  2
GEN-ISO$3
 70
     0
  3

  4

  5

  6

  7

 40
1.0
 41
2.5
 42
1.0
 43
7.0
 44
2.0
 45
0.0
 46
0.0
 47
0.1
 48
0.1
140
3.5
141
0.0
142
0.0
143
0.0393701
144
1.0
145
0.0
146
0.71
147
0.6
 71
     0
 72
     0
 73
     0
 74
     1
 75
     0
 76
     0
 77
     1
 78
     8
170
     0
171
     2
172
     0
173
     0
174
     0
175
     0
176
   256
177
   256
178
     2
  0
ENDTAB
  0
ENDSEC
  0
SECTION
  2
BLOCKS
  0
BLOCK
  8
0
  5
13D
  2
GENPRESE
 70
    66
 10
0.0
 20
0.0
 30
0.0
  3
GENPRESE
  0
ATTDEF
  8
0
  5
12B
 10
0.0
 20
0.0
 30
0.0
 40
3.5
  1
A3
  3
PAPER FORMAT
  2
GEN-KO2
 70
     0
  7
GENPRESET
  0
ATTDEF
  8
0
  5
12C
 10
0.0
 20
-5.0
 30
0.0
 40
3.5
  1
item
  3
SCHRIFTKOPF
  2
GEN-KO3
 70
     0
  7
GENPRESET
  0
ATTDEF
  8
0
  5
12D
 10
0.0
 20
-10.0
 30
0.0
 40
3.5
  1
15
  3
ZEITPERIODE SICHERN
  2
GENSI
 70
     0
  7
GENPRESET
  0
ATTDEF
  8
0
  5
12E
 10
0.0
 20
-15.0
 30
0.0
 40
3.5
  1

  3
NAME ZUM SICHERN
  2
GENSD
 70
     0
  7
GENPRESET
  0
ATTDEF
  8
0
  5
12F
 10
0.0679278917532429
 20
-19.93786241836124
 30
0.0
 40
3.5
  1
0
  3
INFOPKT=0/TEXT=1/NO=2
  2
GENIF
 70
     0
  7
GENPRESET
  0
ATTDEF
  8
0
  5
130
 10
0.0339639458766215
 20
-24.96893120918062
 30
0.0
 40
3.5
  1
2
  3
HORIZ=1/JUSTI=2/KREIS=3
  2
GENPOSVAR
 70
     0
  7
GENPRESET
  0
ATTDEF
  8
0
  5
131
 10
0.0339639458766215
 20
-29.96893120918062
 30
0.0
 40
3.5
  1
0
  3
POSILIN.KREIS=0/PFEIL=1
  2
GENPOSBLK
 70
     0
  7
GENPRESET
  0
ATTDEF
  8
0
  5
132
 10
0.0339639458766215
 20
-34.96893120918062
 30
0.0
 40
3.5
  1
1
  3
INKREMENT POSINR.
  2
GENPOSINC
 70
     0
  7
GENPRESET
  0
ATTDEF
  8
0
  5
133
 10
0.0339639458766215
 20
-39.96893120918062
 30
0.0
 40
3.5
  1
GEN-POS
  3
MASKE POSITIONLISTE
  2
GENPARPOS
 70
     0
  7
GENPRESET
  0
ATTDEF
  8
0
  5
134
 10
0.0339639458766215
 20
-44.96893120918062
 30
0.0
 40
3.5
  1
GEN-SUM
  3
MASKE SUMMENLISTE
  2
GENPARSUM
 70
     0
  7
GENPRESET
  0
ATTDEF
  8
0
  5
135
 10
0.0339639458766215
 20
-49.96893120918062
 30
0.0
 40
3.5
  1
CANONII
  3
STANDARDDRUCKER
  2
GENPARDRU
 70
     0
  7
GENPRESET
  0
ATTDEF
  8
0
  5
136
 10
0.0339639458766215
 20
-54.96893120918062
 30
0.0
 40
3.5
  1

  3
LAYERGRUPPE NORMTEILE
  2
GENSTDLG
 70
     0
  7
GENPRESET
  0
ATTDEF
  8
0
  5
137
 10
0.0339639458766215
 20
-59.96893120918062
 30
0.0
 40
3.5
  1
13
  3
FARBE DIALOG-FELDER
  2
GENCOLBK
 70
     0
  7
GENPRESET
  0
ATTDEF
  8
0
  5
138
 10
0.0339639458766215
 20
-64.96893120918062
 30
0.0
 40
3.5
  1
4
  3
FARBE DIALOG-ÜBERSCHRIFT
  2
GENCOLTI
 70
     0
  7
GENPRESET
  0
ATTDEF
  8
0
  5
139
 10
0.0339639458766215
 20
-69.96893120918062
 30
0.0
 40
3.5
  1
2
  3
FARBE DIALOG-TEXT
  2
GENCOLTX
 70
     0
  7
GENPRESET
  0
ATTDEF
  8
0
  5
13A
 10
0.0339639458766215
 20
-74.96893120918062
 30
0.0
 40
3.5
  1
edlin
  3
TEXTEDITOR
  2
GENEDITOR
 70
     0
  7
GENPRESET
  0
ATTDEF
  8
0
  5
13B
 10
0.0339639458766215
 20
-79.96893120918062
 30
0.0
 40
3.5
  1
M
  3
BEM INCH/METRISCH
  2
GENINCH
 70
     0
  7
GENPRESET
  0
ATTDEF
  8
0
  5
13C
 10
0.0339639458766215
 20
-84.96893120918062
 30
0.0
 40
3.5
  1
ISO
  3
SYMBOLE/BEM ISO/ANSI
  2
GENDIMSTIL
 70
     0
  7
GENPRESET
  0
ENDBLK
  8
0
  5
13E
  0
ENDSEC
  0
SECTION
  2
ENTITIES
  0
CIRCLE
  8
ITEM_50
  5
1D
 10
15.0
 20
14.99999999999998
 30
0.0
 40
2.5
  0
CIRCLE
  8
ITEM_50
  5
1E
 10
45.0
 20
14.99999999999998
 30
0.0
 40
2.5
  0
POLYLINE
  8
ITEM_50
  5
D5
 66
     1
 10
0.0
 20
0.0
 30
0.0
 70
     1
  0
VERTEX
  8
ITEM_50
  5
D6
 10
27.150000000001
 20
1.999999999999076
 30
0.0
 42
-0.4142135623730951
  0
VERTEX
  8
ITEM_50
  5
D7
 10
25.150000000001
 20
3.999999999999076
 30
0.0
  0
VERTEX
  8
ITEM_50
  5
D8
 10
25.150000000001
 20
4.193145750477683
 30
0.0
 42
0.1989123673796551
  0
VERTEX
  8
ITEM_50
  5
D9
 10
23.68553390593365
 20
7.728679656410335
 30
0.0
  0
VERTEX
  8
ITEM_50
  5
DA
 10
21.12867965644409
 20
10.28553390589989
 30
0.0
 42
-0.1989123673796597
  0
VERTEX
  8
ITEM_50
  5
DB
 10
20.25000000000386
 20
12.40685424945955
 30
0.0
  0
VERTEX
  8
ITEM_50
  5
DC
 10
20.25000000000386
 20
17.59314575051324
 30
0.0
 42
-0.1989123673796567
  0
VERTEX
  8
ITEM_50
  5
DD
 10
21.12867965644431
 20
19.7144660940729
 30
0.0
  0
VERTEX
  8
ITEM_50
  5
DE
 10
23.68553390596071
 20
22.2713203435894
 30
0.0
 42
0.1989123673796677
  0
VERTEX
  8
ITEM_50
  5
DF
 10
25.15000000002805
 20
25.80685424952228
 30
0.0
  0
VERTEX
  8
ITEM_50
  5
E0
 10
25.15000000002805
 20
25.99999999999919
 30
0.0
 42
-0.4142135623730988
  0
VERTEX
  8
ITEM_50
  5
E1
 10
27.15000000002805
 20
27.99999999999919
 30
0.0
  0
VERTEX
  8
ITEM_50
  5
E2
 10
32.84999999999968
 20
27.99999999999919
 30
0.0
 42
-0.4142135623730988
  0
VERTEX
  8
ITEM_50
  5
E3
 10
34.84999999999968
 20
25.99999999999919
 30
0.0
  0
VERTEX
  8
ITEM_50
  5
E4
 10
34.84999999999968
 20
25.80685424946373
 30
0.0
 42
0.1989123673796595
  0
VERTEX
  8
ITEM_50
  5
E5
 10
36.31446609406702
 20
22.27132034353097
 30
0.0
  0
VERTEX
  8
ITEM_50
  5
E6
 10
38.87132034352498
 20
19.7144660940729
 30
0.0
 42
-0.1989123673796596
  0
VERTEX
  8
ITEM_50
  5
E7
 10
39.74999999996543
 20
17.59314575051335
 30
0.0
  0
VERTEX
  8
ITEM_50
  5
E8
 10
39.74999999996543
 20
12.40685424945955
 30
0.0
 42
-0.1989123673796566
  0
VERTEX
  8
ITEM_50
  5
E9
 10
38.87132034352498
 20
10.28553390589989
 30
0.0
  0
VERTEX
  8
ITEM_50
  5
EA
 10
36.31446609403974
 20
7.728679656414655
 30
0.0
 42
0.1989123673796589
  0
VERTEX
  8
ITEM_50
  5
EB
 10
34.84999999997262
 20
4.193145750481889
 30
0.0
  0
VERTEX
  8
ITEM_50
  5
EC
 10
34.84999999997262
 20
3.99999999999919
 30
0.0
 42
-0.4142135623731026
  0
VERTEX
  8
ITEM_50
  5
ED
 10
32.84999999997262
 20
1.999999999999076
 30
0.0
  0
SEQEND
  8
ITEM_50
  5
EE
  0
POLYLINE
  8
ITEM_50
  5
EF
 66
     1
 10
0.0
 20
0.0
 30
0.0
 70
     1
  0
VERTEX
  8
ITEM_50
  5
F0
 10
3.0
 20
28.50000000002727
 30
0.0
 42
0.4142135623730893
  0
VERTEX
  8
ITEM_50
  5
F1
 10
1.5
 20
27.00000000002727
 30
0.0
  0
VERTEX
  8
ITEM_50
  5
F2
 10
1.499999999999886
 20
24.95000000002731
 30
0.0
 42
0.4142135623731049
  0
VERTEX
  8
ITEM_50
  5
F3
 10
1.799999999999954
 20
24.65000000002724
 30
0.0
  0
VERTEX
  8
ITEM_50
  5
F4
 10
5.049999999995407
 20
24.65000000002724
 30
0.0
 42
0.4142135623724379
  0
VERTEX
  8
ITEM_50
  5
F5
 10
5.349999999995361
 20
24.95000000002663
 30
0.0
  0
VERTEX
  8
ITEM_50
  5
F6
 10
5.350000000002637
 20
28.20000000002663
 30
0.0
 42
0.4142135623737522
  0
VERTEX
  8
ITEM_50
  5
F7
 10
5.050000000002683
 20
28.50000000002727
 30
0.0
  0
SEQEND
  8
ITEM_50
  5
F8
  0
POLYLINE
  8
ITEM_50
  5
F9
 66
     1
 10
0.0
 20
0.0
 30
0.0
 70
     1
  0
VERTEX
  8
ITEM_50
  5
FA
 10
58.50000000002728
 20
26.99999999999998
 30
0.0
 42
0.4142135623730893
  0
VERTEX
  8
ITEM_50
  5
FB
 10
57.00000000002728
 20
28.49999999999998
 30
0.0
  0
VERTEX
  8
ITEM_50
  5
FC
 10
54.95000000002733
 20
28.49999999999998
 30
0.0
 42
0.4142135623730951
  0
VERTEX
  8
ITEM_50
  5
FD
 10
54.65000000002714
 20
28.20000000000003
 30
0.0
  0
VERTEX
  8
ITEM_50
  5
FE
 10
54.65000000002714
 20
24.95000000000457
 30
0.0
 42
0.4142135623724452
  0
VERTEX
  8
ITEM_50
  5
FF
 10
54.95000000002653
 20
24.65000000000462
 30
0.0
  0
VERTEX
  8
ITEM_50
  5
100
 10
58.20000000002664
 20
24.64999999999734
 30
0.0
 42
0.4142135623737619
  0
VERTEX
  8
ITEM_50
  5
101
 10
58.50000000002728
 20
24.94999999999741
 30
0.0
  0
SEQEND
  8
ITEM_50
  5
102
  0
POLYLINE
  8
ITEM_50
  5
103
 66
     1
 10
0.0
 20
0.0
 30
0.0
 70
     1
  0
VERTEX
  8
ITEM_50
  5
104
 10
54.94999999999731
 20
1.4999999999727
 30
0.0
  0
VERTEX
  8
ITEM_50
  5
105
 10
57.0
 20
1.4999999999727
 30
0.0
 42
0.4142135623730893
  0
VERTEX
  8
ITEM_50
  5
106
 10
58.5
 20
2.9999999999727
 30
0.0
  0
VERTEX
  8
ITEM_50
  5
107
 10
58.49999999999988
 20
5.049999999972655
 30
0.0
 42
0.4142135623730951
  0
VERTEX
  8
ITEM_50
  5
108
 10
58.19999999999981
 20
5.34999999997261
 30
0.0
  0
VERTEX
  8
ITEM_50
  5
109
 10
54.95000000000459
 20
5.34999999997261
 30
0.0
 42
0.4142135623724391
  0
VERTEX
  8
ITEM_50
  5
10A
 10
54.65000000000452
 20
5.049999999973337
 30
0.0
  0
VERTEX
  8
ITEM_50
  5
10B
 10
54.64999999999736
 20
1.799999999973337
 30
0.0
 42
0.414213562373752
  0
SEQEND
  8
ITEM_50
  5
10C
  0
POLYLINE
  8
ITEM_50
  5
10D
 66
     1
 10
0.0
 20
0.0
 30
0.0
 70
     1
  0
VERTEX
  8
ITEM_50
  5
10E
 10
1.499999999972715
 20
2.999999999999985
 30
0.0
 42
0.4142135623730893
  0
VERTEX
  8
ITEM_50
  5
10F
 10
2.999999999972715
 20
1.499999999999985
 30
0.0
  0
VERTEX
  8
ITEM_50
  5
110
 10
5.049999999972669
 20
1.499999999999985
 30
0.0
 42
0.4142135623730943
  0
VERTEX
  8
ITEM_50
  5
111
 10
5.349999999972624
 20
1.79999999999994
 30
0.0
  0
VERTEX
  8
ITEM_50
  5
112
 10
5.349999999972624
 20
5.049999999995392
 30
0.0
 42
0.4142135623724349
  0
VERTEX
  8
ITEM_50
  5
113
 10
5.049999999973351
 20
5.349999999995347
 30
0.0
  0
VERTEX
  8
ITEM_50
  5
114
 10
1.799999999973351
 20
5.350000000002623
 30
0.0
 42
0.414213562373752
  0
VERTEX
  8
ITEM_50
  5
115
 10
1.499999999972601
 20
5.050000000002668
 30
0.0
  0
SEQEND
  8
ITEM_50
  5
116
  0
INSERT
  8
0
  5
160
 66
     1
  2
GENPRESE
 10
102.8388123786662
 20
54.37184864473842
 30
0.0
  0
ATTRIB
  8
0
  5
161
 10
102.8388123786662
 20
54.37184864473842
 30
0.0
 40
3.5
  1
A3
  2
GEN-KO2
 70
     0
  7
GENPRESET
  0
ATTRIB
  8
0
  5
162
 10
102.8388123786662
 20
49.37184864473842
 30
0.0
 40
3.5
  1
item
  2
GEN-KO3
 70
     0
  7
GENPRESET
  0
ATTRIB
  8
0
  5
163
 10
102.8388123786662
 20
44.37184864473842
 30
0.0
 40
3.5
  1
15
  2
GENSI
 70
     0
  7
GENPRESET
  0
ATTRIB
  8
0
  5
164
 10
102.8388123786662
 20
39.37184864473842
 30
0.0
 40
3.5
  1

  2
GENSD
 70
     0
  7
GENPRESET
  0
ATTRIB
  8
0
  5
165
 10
102.9067402704194
 20
34.43398622637717
 30
0.0
 40
3.5
  1
0
  2
GENIF
 70
     0
  7
GENPRESET
  0
ATTRIB
  8
0
  5
166
 10
102.8727763245428
 20
29.40291743555779
 30
0.0
 40
3.5
  1
2
  2
GENPOSVAR
 70
     0
  7
GENPRESET
  0
ATTRIB
  8
0
  5
167
 10
102.8727763245428
 20
24.40291743555779
 30
0.0
 40
3.5
  1
0
  2
GENPOSBLK
 70
     0
  7
GENPRESET
  0
ATTRIB
  8
0
  5
168
 10
102.8727763245428
 20
19.40291743555779
 30
0.0
 40
3.5
  1
1
  2
GENPOSINC
 70
     0
  7
GENPRESET
  0
ATTRIB
  8
0
  5
169
 10
102.8727763245428
 20
14.40291743555779
 30
0.0
 40
3.5
  1
GEN-POS
  2
GENPARPOS
 70
     0
  7
GENPRESET
  0
ATTRIB
  8
0
  5
16A
 10
102.8727763245428
 20
9.402917435557796
 30
0.0
 40
3.5
  1
GEN-SUM
  2
GENPARSUM
 70
     0
  7
GENPRESET
  0
ATTRIB
  8
0
  5
16B
 10
102.8727763245428
 20
4.402917435557796
 30
0.0
 40
3.5
  1
CANONII
  2
GENPARDRU
 70
     0
  7
GENPRESET
  0
ATTRIB
  8
0
  5
16C
 10
102.8727763245428
 20
-0.5970825644422035
 30
0.0
 40
3.5
  1

  2
GENSTDLG
 70
     0
  7
GENPRESET
  0
ATTRIB
  8
0
  5
16D
 10
102.8727763245428
 20
-5.597082564442203
 30
0.0
 40
3.5
  1
13
  2
GENCOLBK
 70
     0
  7
GENPRESET
  0
ATTRIB
  8
0
  5
16E
 10
102.8727763245428
 20
-10.5970825644422
 30
0.0
 40
3.5
  1
4
  2
GENCOLTI
 70
     0
  7
GENPRESET
  0
ATTRIB
  8
0
  5
16F
 10
102.8727763245428
 20
-15.5970825644422
 30
0.0
 40
3.5
  1
2
  2
GENCOLTX
 70
     0
  7
GENPRESET
  0
ATTRIB
  8
0
  5
170
 10
102.8727763245428
 20
-20.5970825644422
 30
0.0
 40
3.5
  1
c:\dos\edit
  2
GENEDITOR
 70
     0
  7
GENPRESET
  0
ATTRIB
  8
0
  5
171
 10
102.8727763245428
 20
-25.5970825644422
 30
0.0
 40
3.5
  1
metric
  2
GENINCH
 70
     0
  7
GENPRESET
  0
ATTRIB
  8
0
  5
172
 10
102.8727763245428
 20
-30.5970825644422
 30
0.0
 40
3.5
  1
ISO
  2
GENDIMSTIL
 70
     0
  7
GENPRESET
  0
SEQEND
  8
0
  5
173
  0
TEXT
  8
6
  5
174
 10
809.5294741446725
 20
775.4123625289101
 30
0.0
 40
3.5
  1
  
  0
TEXT
  8
6
  5
175
 10
809.5294741446725
 20
765.4123625289101
 30
0.0
 40
3.5
  1
  
  0
TEXT
  8
6
  5
176
 10
809.5294741446725
 20
755.4123625289101
 30
0.0
 40
3.5
  1
  
  0
TEXT
  8
6
  5
177
 10
1080.108326012296
 20
1027.570143131016
 30
0.0
 40
3.5
  1
   
  0
TEXT
  8
6
  5
178
 10
1080.108326012296
 20
1038.570143131016
 30
0.0
 40
3.5
  1
   
  0
TEXT
  8
6
  5
179
 10
1080.108326012296
 20
1049.570143131016
 30
0.0
 40
3.5
  1
   
  0
POINT
  8
ITEM_HILFE
  5
17A
 10
0.0
 20
15.0
 30
0.0
  0
POINT
  8
ITEM_HILFE
  5
17B
 10
15.0
 20
30.0
 30
0.0
  0
POINT
  8
ITEM_HILFE
  5
17C
 10
15.0
 20
-0.0000000000000071
 30
0.0
  0
POINT
  8
ITEM_HILFE
  5
17D
 10
3.0
 20
15.0
 30
0.0
  0
POINT
  8
ITEM_HILFE
  5
17E
 10
15.0
 20
2.999999999999992
 30
0.0
  0
POINT
  8
ITEM_HILFE
  5
17F
 10
0.0
 20
30.0
 30
0.0
  0
POINT
  8
ITEM_HILFE
  5
180
 10
0.0
 20
0.0
 30
0.0
  0
POINT
  8
ITEM_HILFE
  5
1E9
 10
60.00000004492449
 20
30.0
 30
0.0
  0
POINT
  8
ITEM_HILFE
  5
1EA
 10
60.00000004492449
 20
15.0
 30
0.0
  0
POINT
  8
ITEM_HILFE
  5
1EB
 10
60.00000004492449
 20
0.0
 30
0.0
  0
POINT
  8
ITEM_HILFE
  5
1EC
 10
57.00000004492449
 20
15.0
 30
0.0
  0
POINT
  8
ITEM_HILFE
  5
1ED
 10
45.00000004492449
 20
-0.0000000000000071
 30
0.0
  0
POINT
  8
ITEM_HILFE
  5
1EE
 10
45.00000004492449
 20
2.999999999999992
 30
0.0
  0
POINT
  8
ITEM_HILFE
  5
1EF
 10
45.00000004492449
 20
30.0
 30
0.0
  0
POINT
  8
ITEM_HILFE
  5
1F0
 10
15.0
 20
27.00000000000001
 30
0.0
  0
POINT
  8
ITEM_HILFE
  5
1F1
 10
45.00000004492449
 20
27.00000000000001
 30
0.0
  0
POLYLINE
  8
ITEM_50
  5
2DE
 66
     1
 10
0.0
 20
0.0
 30
0.0
 70
     1
  0
VERTEX
  8
ITEM_50
  5
389
 10
50.30000000002814
 20
27.00000000000646
 30
0.0
 42
0.4142135623730984
  0
VERTEX
  8
ITEM_50
  5
386
 10
50.6000000000281
 20
27.30000000000642
 30
0.0
  0
VERTEX
  8
ITEM_50
  5
385
 10
50.60000000002798
 20
28.20000000000651
 30
0.0
 42
-0.414213562373095
  0
VERTEX
  8
ITEM_50
  5
37C
 10
50.90000000002805
 20
28.50000000000646
 30
0.0
  0
VERTEX
  8
ITEM_50
  5
37A
 10
52.15000000002805
 20
28.50000000000646
 30
0.0
 42
-0.4142135623730951
  0
VERTEX
  8
ITEM_50
  5
377
 10
53.15000000002805
 20
27.50000000000646
 30
0.0
  0
VERTEX
  8
ITEM_50
  5
376
 10
53.15000000002805
 20
25.80685424949329
 30
0.0
 42
-0.1989123673796603
  0
VERTEX
  8
ITEM_50
  5
373
 10
52.2713203435876
 20
23.68553390593363
 30
0.0
  0
VERTEX
  8
ITEM_50
  5
370
 10
49.71446609410099
 20
21.1286796564468
 30
0.0
 42
-0.1989123673796596
  0
VERTEX
  8
ITEM_50
  5
367
 10
47.59314575054031
 20
20.25000000000567
 30
0.0
  0
VERTEX
  8
ITEM_50
  5
364
 10
42.40685424948674
 20
20.25000000000567
 30
0.0
 42
-0.1989123673796565
  0
VERTEX
  8
ITEM_50
  5
363
 10
40.28553390592696
 20
21.12867965644601
 30
0.0
  0
VERTEX
  8
ITEM_50
  5
361
 10
37.72867965644013
 20
23.68553390593295
 30
0.0
 42
-0.1989123673796542
  0
VERTEX
  8
ITEM_50
  5
35E
 10
36.84999999999968
 20
25.8068542494925
 30
0.0
  0
VERTEX
  8
ITEM_50
  5
35C
 10
36.84999999999968
 20
27.50000000000555
 30
0.0
 42
-0.4142135623730971
  0
VERTEX
  8
ITEM_50
  5
35B
 10
37.84999999999968
 20
28.50000000000555
 30
0.0
  0
VERTEX
  8
ITEM_50
  5
354
 10
39.10000000002719
 20
28.50000000000555
 30
0.0
 42
-0.4142135623730951
  0
VERTEX
  8
ITEM_50
  5
34E
 10
39.40000000002714
 20
28.2000000000056
 30
0.0
  0
VERTEX
  8
ITEM_50
  5
34C
 10
39.40000000002726
 20
27.30000000000573
 30
0.0
 42
0.4142135623730951
  0
VERTEX
  8
ITEM_50
  5
34A
 10
39.70000000002733
 20
27.00000000000567
 30
0.0
  0
VERTEX
  8
ITEM_50
  5
346
 10
40.90000000002714
 20
27.00000000000567
 30
0.0
 42
0.4142135623730951
  0
VERTEX
  8
ITEM_50
  5
342
 10
41.90000000002714
 20
28.00000000000567
 30
0.0
  0
VERTEX
  8
ITEM_50
  5
341
 10
41.90000000002714
 20
29.0
 30
0.0
 42
0.4142135623730951
  0
VERTEX
  8
ITEM_50
  5
338
 10
40.90000000002714
 20
30.0
 30
0.0
  0
VERTEX
  8
ITEM_50
  5
337
 10
19.1000000000281
 20
30.00000000000001
 30
0.0
 42
0.4142135623730951
  0
VERTEX
  8
ITEM_50
  5
335
 10
18.1000000000281
 20
29.00000000000001
 30
0.0
  0
VERTEX
  8
ITEM_50
  5
32E
 10
18.1000000000281
 20
28.00000000000646
 30
0.0
 42
0.4142135623730909
  0
VERTEX
  8
ITEM_50
  5
329
 10
19.1000000000281
 20
27.00000000000646
 30
0.0
  0
VERTEX
  8
ITEM_50
  5
327
 10
20.30000000002814
 20
27.00000000000646
 30
0.0
 42
0.4142135623731018
  0
VERTEX
  8
ITEM_50
  5
323
 10
20.6000000000281
 20
27.30000000000642
 30
0.0
  0
VERTEX
  8
ITEM_50
  5
322
 10
20.60000000002798
 20
28.20000000000651
 30
0.0
 42
-0.414213562373095
  0
VERTEX
  8
ITEM_50
  5
31F
 10
20.90000000002805
 20
28.50000000000646
 30
0.0
  0
VERTEX
  8
ITEM_50
  5
31B
 10
22.15000000002805
 20
28.50000000000646
 30
0.0
 42
-0.4142135623730951
  0
VERTEX
  8
ITEM_50
  5
312
 10
23.15000000002805
 20
27.50000000000646
 30
0.0
  0
VERTEX
  8
ITEM_50
  5
311
 10
23.15000000002805
 20
25.80685424949329
 30
0.0
 42
-0.1989123673796603
  0
VERTEX
  8
ITEM_50
  5
310
 10
22.2713203435876
 20
23.68553390593363
 30
0.0
  0
VERTEX
  8
ITEM_50
  5
30D
 10
19.71446609410099
 20
21.1286796564468
 30
0.0
 42
-0.1989123673796596
  0
VERTEX
  8
ITEM_50
  5
30C
 10
17.59314575054031
 20
20.25000000000567
 30
0.0
  0
VERTEX
  8
ITEM_50
  5
30A
 10
12.40685424948674
 20
20.25000000000567
 30
0.0
 42
-0.1989123673796565
  0
VERTEX
  8
ITEM_50
  5
309
 10
10.28553390592696
 20
21.12867965644601
 30
0.0
  0
VERTEX
  8
ITEM_50
  5
308
 10
7.728679656440135
 20
23.68553390593295
 30
0.0
 42
-0.1989123673796538
  0
VERTEX
  8
ITEM_50
  5
305
 10
6.849999999999681
 20
25.8068542494925
 30
0.0
  0
VERTEX
  8
ITEM_50
  5
2FD
 10
6.849999999999683
 20
27.50000000000555
 30
0.0
 42
-0.4142135623730988
  0
VERTEX
  8
ITEM_50
  5
2FC
 10
7.849999999999681
 20
28.50000000000555
 30
0.0
  0
VERTEX
  8
ITEM_50
  5
2F8
 10
9.100000000027193
 20
28.50000000000555
 30
0.0
 42
-0.4142135623730951
  0
VERTEX
  8
ITEM_50
  5
2F5
 10
9.400000000027148
 20
28.2000000000056
 30
0.0
  0
VERTEX
  8
ITEM_50
  5
2F3
 10
9.400000000027262
 20
27.30000000000573
 30
0.0
 42
0.4142135623730951
  0
VERTEX
  8
ITEM_50
  5
2F0
 10
9.70000000002733
 20
27.00000000000567
 30
0.0
  0
VERTEX
  8
ITEM_50
  5
2E8
 10
10.90000000002714
 20
27.00000000000567
 30
0.0
 42
0.4142135623730951
  0
VERTEX
  8
ITEM_50
  5
2E5
 10
11.90000000002714
 20
28.00000000000567
 30
0.0
  0
VERTEX
  8
ITEM_50
  5
2E4
 10
11.90000000002714
 20
29.00000000000001
 30
0.0
 42
0.4142135623730951
  0
VERTEX
  8
ITEM_50
  5
2E2
 10
10.90000000002714
 20
30.0
 30
0.0
  0
VERTEX
  8
ITEM_50
  5
2DF
 10
3.0
 20
30.00000000000001
 30
0.0
 42
0.4142135623730951
  0
VERTEX
  8
ITEM_50
  5
2E0
 10
0.0
 20
27.00000000000001
 30
0.0
  0
VERTEX
  8
ITEM_50
  5
2E3
 10
0.0
 20
19.09999999997272
 30
0.0
 42
0.4142135623730951
  0
VERTEX
  8
ITEM_50
  5
2E6
 10
1.0
 20
18.09999999997272
 30
0.0
  0
VERTEX
  8
ITEM_50
  5
2E7
 10
1.999999999994315
 20
18.09999999997272
 30
0.0
 42
0.4142135623730951
  0
VERTEX
  8
ITEM_50
  5
2E9
 10
2.999999999994315
 20
19.09999999997272
 30
0.0
  0
VERTEX
  8
ITEM_50
  5
2EA
 10
2.999999999994315
 20
20.29999999997276
 30
0.0
 42
0.4142135623730951
  0
VERTEX
  8
ITEM_50
  5
2EB
 10
2.699999999994361
 20
20.59999999997272
 30
0.0
  0
VERTEX
  8
ITEM_50
  5
2EC
 10
1.79999999999427
 20
20.59999999997272
 30
0.0
 42
-0.4142135623730951
  0
VERTEX
  8
ITEM_50
  5
2ED
 10
1.499999999994315
 20
20.89999999997267
 30
0.0
  0
VERTEX
  8
ITEM_50
  5
2EE
 10
1.499999999994315
 20
22.15000000002724
 30
0.0
 42
-0.4142135623731054
  0
VERTEX
  8
ITEM_50
  5
2EF
 10
2.499999999994315
 20
23.15000000002724
 30
0.0
  0
VERTEX
  8
ITEM_50
  5
2F1
 10
4.193145750480198
 20
23.15000000002724
 30
0.0
 42
-0.1989123673796579
  0
VERTEX
  8
ITEM_50
  5
2F2
 10
6.314466094039744
 20
22.27132034358702
 30
0.0
  0
VERTEX
  8
ITEM_50
  5
2F4
 10
8.871320343553861
 20
19.7144660940729
 30
0.0
 42
-0.1989123673796568
  0
VERTEX
  8
ITEM_50
  5
2F6
 10
9.749999999994315
 20
17.59314575051324
 30
0.0
  0
VERTEX
  8
ITEM_50
  5
2F7
 10
9.749999999994315
 20
12.40685424945955
 30
0.0
 42
-0.1989123673796596
  0
VERTEX
  8
ITEM_50
  5
2F9
 10
8.871320343554089
 20
10.28553390589989
 30
0.0
  0
VERTEX
  8
ITEM_50
  5
2FA
 10
6.314466094094314
 20
7.728679656440121
 30
0.0
 42
-0.198912367379658
  0
VERTEX
  8
ITEM_50
  5
2FB
 10
4.193145750534767
 20
6.849999999999781
 30
0.0
  0
VERTEX
  8
ITEM_50
  5
2FE
 10
2.499999999994315
 20
6.849999999999894
 30
0.0
 42
-0.4142135623730951
  0
VERTEX
  8
ITEM_50
  5
2FF
 10
1.499999999994315
 20
7.849999999999894
 30
0.0
  0
VERTEX
  8
ITEM_50
  5
300
 10
1.499999999994315
 20
9.099999999972723
 30
0.0
 42
-0.4142135623730951
  0
VERTEX
  8
ITEM_50
  5
301
 10
1.79999999999427
 20
9.399999999972678
 30
0.0
  0
VERTEX
  8
ITEM_50
  5
302
 10
2.699999999994361
 20
9.399999999972791
 30
0.0
 42
0.414213562373101
  0
VERTEX
  8
ITEM_50
  5
303
 10
2.999999999994315
 20
9.699999999972746
 30
0.0
  0
VERTEX
  8
ITEM_50
  5
304
 10
2.999999999994315
 20
10.89999999997279
 30
0.0
 42
0.4142135623730919
  0
VERTEX
  8
ITEM_50
  5
306
 10
1.999999999994315
 20
11.89999999997279
 30
0.0
  0
VERTEX
  8
ITEM_50
  5
307
 10
1.0
 20
11.89999999997279
 30
0.0
 42
0.4142135623730951
  0
VERTEX
  8
ITEM_50
  5
30B
 10
0.0
 20
10.89999999997279
 30
0.0
  0
VERTEX
  8
ITEM_50
  5
30E
 10
0.0
 20
3.0
 30
0.0
 42
0.4142135623730951
  0
VERTEX
  8
ITEM_50
  5
30F
 10
3.0
 20
0.0
 30
0.0
  0
VERTEX
  8
ITEM_50
  5
313
 10
10.89999999999986
 20
0.0
 30
0.0
 42
0.4142135623730951
  0
VERTEX
  8
ITEM_50
  5
314
 10
11.89999999999986
 20
1.0
 30
0.0
  0
VERTEX
  8
ITEM_50
  5
315
 10
11.89999999999986
 20
1.99999999996713
 30
0.0
 42
0.4142135623730919
  0
VERTEX
  8
ITEM_50
  5
316
 10
10.89999999999986
 20
2.99999999996713
 30
0.0
  0
VERTEX
  8
ITEM_50
  5
317
 10
9.700000000000045
 20
2.99999999996713
 30
0.0
 42
0.414213562373101
  0
VERTEX
  8
ITEM_50
  5
318
 10
9.399999999999977
 20
2.699999999967062
 30
0.0
  0
VERTEX
  8
ITEM_50
  5
319
 10
9.399999999999863
 20
1.799999999967084
 30
0.0
 42
-0.4142135623730951
  0
VERTEX
  8
ITEM_50
  5
31A
 10
9.099999999999909
 20
1.49999999996713
 30
0.0
  0
VERTEX
  8
ITEM_50
  5
31C
 10
7.849999999972624
 20
1.499999999967244
 30
0.0
 42
-0.4142135623730925
  0
VERTEX
  8
ITEM_50
  5
31D
 10
6.849999999972624
 20
2.499999999967244
 30
0.0
  0
VERTEX
  8
ITEM_50
  5
31E
 10
6.849999999972624
 20
4.193145750453013
 30
0.0
 42
-0.1989123673796575
  0
VERTEX
  8
ITEM_50
  5
320
 10
7.72867965641285
 20
6.314466094012672
 30
0.0
  0
VERTEX
  8
ITEM_50
  5
321
 10
10.28553390592696
 20
8.87132034352679
 30
0.0
 42
-0.1989123673796596
  0
VERTEX
  8
ITEM_50
  5
324
 10
12.40685424948674
 20
9.74999999996713
 30
0.0
  0
VERTEX
  8
ITEM_50
  5
325
 10
17.59314575054054
 20
9.74999999996713
 30
0.0
 42
-0.1989123673796566
  0
VERTEX
  8
ITEM_50
  5
326
 10
19.71446609410099
 20
8.871320343527585
 30
0.0
  0
VERTEX
  8
ITEM_50
  5
328
 10
22.27132034356054
 20
6.314466094067924
 30
0.0
 42
-0.1989123673796556
  0
VERTEX
  8
ITEM_50
  5
32A
 10
23.150000000001
 20
4.193145750508378
 30
0.0
  0
VERTEX
  8
ITEM_50
  5
32B
 10
23.150000000001
 20
2.499999999967926
 30
0.0
 42
-0.4142135623731078
  0
VERTEX
  8
ITEM_50
  5
32C
 10
22.150000000001
 20
1.499999999967926
 30
0.0
  0
VERTEX
  8
ITEM_50
  5
32D
 10
20.90000000000077
 20
1.499999999967926
 30
0.0
 42
-0.4142135623730949
  0
VERTEX
  8
ITEM_50
  5
32F
 10
20.6000000000007
 20
1.79999999996788
 30
0.0
  0
VERTEX
  8
ITEM_50
  5
330
 10
20.60000000000081
 20
2.699999999967971
 30
0.0
 42
0.4142135623730951
  0
VERTEX
  8
ITEM_50
  5
331
 10
20.30000000000086
 20
2.999999999967926
 30
0.0
  0
VERTEX
  8
ITEM_50
  5
332
 10
19.10000000000081
 20
2.999999999967926
 30
0.0
 42
0.4142135623730951
  0
VERTEX
  8
ITEM_50
  5
333
 10
18.10000000000081
 20
1.999999999967926
 30
0.0
  0
VERTEX
  8
ITEM_50
  5
334
 10
18.10000000000081
 20
1.0
 30
0.0
 42
0.4142135623730951
  0
VERTEX
  8
ITEM_50
  5
336
 10
19.10000000000081
 20
0.0
 30
0.0
  0
VERTEX
  8
ITEM_50
  5
339
 10
40.89999999999986
 20
0.0
 30
0.0
 42
0.4142135623730951
  0
VERTEX
  8
ITEM_50
  5
33A
 10
41.89999999999986
 20
1.0
 30
0.0
  0
VERTEX
  8
ITEM_50
  5
33B
 10
41.89999999999986
 20
1.99999999996713
 30
0.0
 42
0.4142135623730912
  0
VERTEX
  8
ITEM_50
  5
33C
 10
40.89999999999986
 20
2.99999999996713
 30
0.0
  0
VERTEX
  8
ITEM_50
  5
33D
 10
39.70000000000004
 20
2.99999999996713
 30
0.0
 42
0.4142135623730977
  0
VERTEX
  8
ITEM_50
  5
33E
 10
39.39999999999997
 20
2.699999999967062
 30
0.0
  0
VERTEX
  8
ITEM_50
  5
33F
 10
39.39999999999986
 20
1.799999999967084
 30
0.0
 42
-0.4142135623730951
  0
VERTEX
  8
ITEM_50
  5
340
 10
39.0999999999999
 20
1.49999999996713
 30
0.0
  0
VERTEX
  8
ITEM_50
  5
343
 10
37.84999999997262
 20
1.499999999967244
 30
0.0
 42
-0.4142135623730938
  0
VERTEX
  8
ITEM_50
  5
344
 10
36.84999999997262
 20
2.499999999967244
 30
0.0
  0
VERTEX
  8
ITEM_50
  5
345
 10
36.84999999997262
 20
4.193145750453013
 30
0.0
 42
-0.1989123673796578
  0
VERTEX
  8
ITEM_50
  5
347
 10
37.72867965641285
 20
6.314466094012672
 30
0.0
  0
VERTEX
  8
ITEM_50
  5
348
 10
40.28553390592696
 20
8.87132034352679
 30
0.0
 42
-0.1989123673796597
  0
VERTEX
  8
ITEM_50
  5
349
 10
42.40685424948674
 20
9.74999999996713
 30
0.0
  0
VERTEX
  8
ITEM_50
  5
34B
 10
47.59314575054054
 20
9.74999999996713
 30
0.0
 42
-0.1989123673796566
  0
VERTEX
  8
ITEM_50
  5
34D
 10
49.71446609410099
 20
8.871320343527585
 30
0.0
  0
VERTEX
  8
ITEM_50
  5
34F
 10
52.27132034356054
 20
6.314466094067924
 30
0.0
 42
-0.1989123673796556
  0
VERTEX
  8
ITEM_50
  5
350
 10
53.150000000001
 20
4.193145750508378
 30
0.0
  0
VERTEX
  8
ITEM_50
  5
351
 10
53.150000000001
 20
2.499999999967926
 30
0.0
 42
-0.4142135623731078
  0
VERTEX
  8
ITEM_50
  5
352
 10
52.150000000001
 20
1.499999999967926
 30
0.0
  0
VERTEX
  8
ITEM_50
  5
353
 10
50.90000000000077
 20
1.499999999967926
 30
0.0
 42
-0.4142135623730949
  0
VERTEX
  8
ITEM_50
  5
355
 10
50.6000000000007
 20
1.79999999996788
 30
0.0
  0
VERTEX
  8
ITEM_50
  5
356
 10
50.60000000000081
 20
2.699999999967971
 30
0.0
 42
0.4142135623730951
  0
VERTEX
  8
ITEM_50
  5
357
 10
50.30000000000086
 20
2.999999999967926
 30
0.0
  0
VERTEX
  8
ITEM_50
  5
358
 10
49.10000000000081
 20
2.999999999967926
 30
0.0
 42
0.4142135623730951
  0
VERTEX
  8
ITEM_50
  5
359
 10
48.10000000000081
 20
1.999999999967926
 30
0.0
  0
VERTEX
  8
ITEM_50
  5
35A
 10
48.10000000000082
 20
1.0
 30
0.0
 42
0.4142135623730951
  0
VERTEX
  8
ITEM_50
  5
35D
 10
49.10000000000082
 20
0.0
 30
0.0
  0
VERTEX
  8
ITEM_50
  5
35F
 10
57.0
 20
0.0
 30
0.0
 42
0.4142135623730951
  0
VERTEX
  8
ITEM_50
  5
360
 10
60.0
 20
3.0
 30
0.0
  0
VERTEX
  8
ITEM_50
  5
362
 10
60.0
 20
10.89999999999996
 30
0.0
 42
0.4142135623730951
  0
VERTEX
  8
ITEM_50
  5
365
 10
59.0
 20
11.89999999999996
 30
0.0
  0
VERTEX
  8
ITEM_50
  5
366
 10
58.00000000003274
 20
11.89999999999996
 30
0.0
 42
0.4142135623730951
  0
VERTEX
  8
ITEM_50
  5
368
 10
57.00000000003274
 20
10.89999999999996
 30
0.0
  0
VERTEX
  8
ITEM_50
  5
369
 10
57.00000000003274
 20
9.700000000000031
 30
0.0
 42
0.4142135623730951
  0
VERTEX
  8
ITEM_50
  5
36A
 10
57.30000000003292
 20
9.400000000000076
 30
0.0
  0
VERTEX
  8
ITEM_50
  5
36B
 10
58.20000000003278
 20
9.399999999999963
 30
0.0
 42
-0.4142135623730951
  0
VERTEX
  8
ITEM_50
  5
36C
 10
58.50000000003285
 20
9.100000000000008
 30
0.0
  0
VERTEX
  8
ITEM_50
  5
36D
 10
58.50000000003296
 20
7.849999999972723
 30
0.0
 42
-0.4142135623731045
  0
VERTEX
  8
ITEM_50
  5
36E
 10
57.50000000003296
 20
6.84999999997261
 30
0.0
  0
VERTEX
  8
ITEM_50
  5
36F
 10
55.80685424951957
 20
6.84999999997261
 30
0.0
 42
-0.1989123673796632
  0
VERTEX
  8
ITEM_50
  5
371
 10
53.68553390596002
 20
7.728679656413177
 30
0.0
  0
VERTEX
  8
ITEM_50
  5
372
 10
51.12867965647319
 20
10.28553390589989
 30
0.0
 42
-0.1989123673796567
  0
VERTEX
  8
ITEM_50
  5
374
 10
50.25000000003274
 20
12.40685424945955
 30
0.0
  0
VERTEX
  8
ITEM_50
  5
375
 10
50.25000000003274
 20
17.59314575051324
 30
0.0
 42
-0.1989123673796597
  0
VERTEX
  8
ITEM_50
  5
378
 10
51.12867965647319
 20
19.7144660940729
 30
0.0
  0
VERTEX
  8
ITEM_50
  5
379
 10
53.68553390596014
 20
22.27132034355985
 30
0.0
 42
-0.1989123673796556
  0
VERTEX
  8
ITEM_50
  5
37B
 10
55.8068542495198
 20
23.15000000000019
 30
0.0
  0
VERTEX
  8
ITEM_50
  5
37D
 10
57.50000000003274
 20
23.15000000000019
 30
0.0
 42
-0.4142135623730951
  0
VERTEX
  8
ITEM_50
  5
37E
 10
58.50000000003274
 20
22.15000000000019
 30
0.0
  0
VERTEX
  8
ITEM_50
  5
37F
 10
58.50000000003285
 20
20.89999999999996
 30
0.0
 42
-0.4142135623730951
  0
VERTEX
  8
ITEM_50
  5
380
 10
58.20000000003278
 20
20.6
 30
0.0
  0
VERTEX
  8
ITEM_50
  5
381
 10
57.30000000003292
 20
20.6
 30
0.0
 42
0.4142135623730985
  0
VERTEX
  8
ITEM_50
  5
382
 10
57.00000000003274
 20
20.30000000000005
 30
0.0
  0
VERTEX
  8
ITEM_50
  5
383
 10
57.00000000003274
 20
19.1
 30
0.0
 42
0.4142135623730909
  0
VERTEX
  8
ITEM_50
  5
384
 10
58.00000000003274
 20
18.1
 30
0.0
  0
VERTEX
  8
ITEM_50
  5
387
 10
59.0
 20
18.10000000000001
 30
0.0
 42
0.4142135623730951
  0
VERTEX
  8
ITEM_50
  5
388
 10
60.0
 20
19.10000000000001
 30
0.0
  0
VERTEX
  8
ITEM_50
  5
38A
 10
60.0
 20
27.0
 30
0.0
 42
0.4142135623730951
  0
VERTEX
  8
ITEM_50
  5
38B
 10
57.0
 20
30.0
 30
0.0
  0
VERTEX
  8
ITEM_50
  5
38C
 10
49.1000000000281
 20
29.99999999999999
 30
0.0
 42
0.4142135623730951
  0
VERTEX
  8
ITEM_50
  5
38D
 10
48.1000000000281
 20
29.0
 30
0.0
  0
VERTEX
  8
ITEM_50
  5
38E
 10
48.1000000000281
 20
28.00000000000646
 30
0.0
 42
0.4142135623730909
  0
VERTEX
  8
ITEM_50
  5
38F
 10
49.1000000000281
 20
27.00000000000646
 30
0.0
  0
SEQEND
  8
ITEM_50
  5
2E1
  0
LINE
  8
ITEM_50
  5
394
 10
80.0
 20
30.0
 30
0.0
 11
81.0
 21
30.0
 31
0.0
  0
LINE
  8
ITEM_50
  5
396
 10
80.0
 20
0.0
 30
0.0
 11
81.0
 21
0.0
 31
0.0
  0
LINE
  8
ITEM_50
  5
397
 10
60.00000000000001
 20
51.0
 30
0.0
 11
60.0
 21
50.0
 31
0.0
  0
LINE
  8
ITEM_50
  5
398
 10
80.0
 20
30.0
 30
0.0
 11
80.0
 21
0.0
 31
0.0
  0
LINE
  8
ITEM_50
  5
39D
 10
81.0
 20
30.0
 30
0.0
 11
81.0
 21
0.0
 31
0.0
  0
LINE
  8
ITEM_50
  5
3A3
 10
80.0
 20
18.1
 30
0.0
 11
81.0
 21
18.1
 31
0.0
  0
LINE
  8
ITEM_50
  5
3A4
 10
80.0
 20
11.89999999999996
 30
0.0
 11
81.0
 21
11.89999999999996
 31
0.0
  0
LINE
  8
ITEM_50
  5
3A6
 10
60.0
 20
50.0
 30
0.0
 11
0.0
 21
50.0
 31
0.0
  0
LINE
  8
ITEM_50
  5
3AB
 10
60.0
 20
51.0
 30
0.0
 11
0.0
 21
51.0
 31
0.0
  0
LINE
  8
ITEM_50
  5
3B0
 10
0.0
 20
50.0
 30
0.0
 11
0.0
 21
51.0
 31
0.0
  0
LINE
  8
ITEM_50
  5
3B2
 10
11.90000000002714
 20
50.0
 30
0.0
 11
11.90000000002714
 21
51.0
 31
0.0
  0
LINE
  8
ITEM_50
  5
3B3
 10
18.1000000000281
 20
50.0
 30
0.0
 11
18.10000000002809
 21
51.0
 31
0.0
  0
LINE
  8
ITEM_50
  5
3B4
 10
41.90000000002714
 20
50.0
 30
0.0
 11
41.90000000002714
 21
51.0
 31
0.0
  0
LINE
  8
ITEM_50
  5
3B5
 10
48.1000000000281
 20
50.0
 30
0.0
 11
48.1000000000281
 21
51.0
 31
0.0
  0
POINT
  8
ITEM_HILFE
  5
3B6
 10
-0.0000000000000089
 20
50.0
 30
0.0
  0
POINT
  8
ITEM_HILFE
  5
3B7
 10
60.00000004492448
 20
50.0
 30
0.0
  0
POINT
  8
ITEM_HILFE
  5
3B8
 10
80.0
 20
30.0
 30
0.0
  0
POINT
  8
ITEM_HILFE
  5
3B9
 10
80.0
 20
0.0
 30
0.0
  0
ENDSEC
  0
EOF
